ISO-10303-21;
HEADER;
/* Generated by software containing ST-Developer
 * from STEP Tools, Inc. (www.steptools.com) 
 */

FILE_DESCRIPTION(
/* description */ (''),
/* implementation_level */ '2;1');

FILE_NAME(
/* name */ 'C:\\Users\\Robbie\\Documents\\Inventor\\Actuators\\MB5.T.s
tp',
/* time_stamp */ '2014-11-05T10:46:24-08:00',
/* author */ ('Robbie'),
/* organization */ (''),
/* preprocessor_version */ 'ST-DEVELOPER v15.2',
/* originating_system */ 'Autodesk Inventor 2014',
/* authorisation */ '');

FILE_SCHEMA (('AUTOMOTIVE_DESIGN { 1 0 10303 214 3 1 1 }'));
ENDSEC;

DATA;
#10=SHAPE_REPRESENTATION_RELATIONSHIP('SRR','None',#691,#11);
#11=ADVANCED_BREP_SHAPE_REPRESENTATION($,(#402),#682);
#12=STYLED_ITEM($,(#699),#402);
#13=FACE_BOUND($,#59,.T.);
#14=FACE_BOUND($,#60,.T.);
#15=FACE_BOUND($,#63,.T.);
#16=FACE_BOUND($,#67,.T.);
#17=FACE_BOUND($,#68,.T.);
#18=FACE_BOUND($,#73,.T.);
#19=FACE_BOUND($,#74,.T.);
#20=FACE_BOUND($,#79,.T.);
#21=FACE_BOUND($,#81,.T.);
#22=FACE_BOUND($,#83,.T.);
#23=FACE_BOUND($,#85,.T.);
#24=FACE_BOUND($,#87,.T.);
#25=FACE_BOUND($,#90,.T.);
#26=FACE_BOUND($,#91,.T.);
#27=FACE_BOUND($,#92,.T.);
#28=FACE_BOUND($,#93,.T.);
#29=PLANE($,#407);
#30=PLANE($,#413);
#31=PLANE($,#419);
#32=PLANE($,#420);
#33=PLANE($,#426);
#34=PLANE($,#430);
#35=PLANE($,#434);
#36=PLANE($,#447);
#37=PLANE($,#448);
#38=FACE_OUTER_BOUND($,#58,.T.);
#39=FACE_OUTER_BOUND($,#61,.T.);
#40=FACE_OUTER_BOUND($,#62,.T.);
#41=FACE_OUTER_BOUND($,#64,.T.);
#42=FACE_OUTER_BOUND($,#65,.T.);
#43=FACE_OUTER_BOUND($,#66,.T.);
#44=FACE_OUTER_BOUND($,#69,.T.);
#45=FACE_OUTER_BOUND($,#70,.T.);
#46=FACE_OUTER_BOUND($,#71,.T.);
#47=FACE_OUTER_BOUND($,#72,.T.);
#48=FACE_OUTER_BOUND($,#75,.T.);
#49=FACE_OUTER_BOUND($,#76,.T.);
#50=FACE_OUTER_BOUND($,#77,.T.);
#51=FACE_OUTER_BOUND($,#78,.T.);
#52=FACE_OUTER_BOUND($,#80,.T.);
#53=FACE_OUTER_BOUND($,#82,.T.);
#54=FACE_OUTER_BOUND($,#84,.T.);
#55=FACE_OUTER_BOUND($,#86,.T.);
#56=FACE_OUTER_BOUND($,#88,.T.);
#57=FACE_OUTER_BOUND($,#89,.T.);
#58=EDGE_LOOP($,(#264,#265,#266,#267));
#59=EDGE_LOOP($,(#268));
#60=EDGE_LOOP($,(#269,#270,#271,#272));
#61=EDGE_LOOP($,(#273,#274,#275,#276));
#62=EDGE_LOOP($,(#277,#278,#279,#280));
#63=EDGE_LOOP($,(#281));
#64=EDGE_LOOP($,(#282,#283,#284,#285));
#65=EDGE_LOOP($,(#286,#287,#288,#289));
#66=EDGE_LOOP($,(#290,#291,#292,#293,#294,#295));
#67=EDGE_LOOP($,(#296));
#68=EDGE_LOOP($,(#297));
#69=EDGE_LOOP($,(#298,#299,#300,#301));
#70=EDGE_LOOP($,(#302,#303,#304,#305,#306,#307,#308,#309,#310,#311));
#71=EDGE_LOOP($,(#312,#313,#314,#315));
#72=EDGE_LOOP($,(#316,#317,#318,#319,#320,#321));
#73=EDGE_LOOP($,(#322));
#74=EDGE_LOOP($,(#323));
#75=EDGE_LOOP($,(#324,#325,#326,#327));
#76=EDGE_LOOP($,(#328,#329,#330,#331));
#77=EDGE_LOOP($,(#332,#333,#334,#335));
#78=EDGE_LOOP($,(#336));
#79=EDGE_LOOP($,(#337));
#80=EDGE_LOOP($,(#338));
#81=EDGE_LOOP($,(#339));
#82=EDGE_LOOP($,(#340));
#83=EDGE_LOOP($,(#341));
#84=EDGE_LOOP($,(#342));
#85=EDGE_LOOP($,(#343));
#86=EDGE_LOOP($,(#344));
#87=EDGE_LOOP($,(#345));
#88=EDGE_LOOP($,(#346,#347,#348,#349,#350,#351,#352,#353,#354,#355));
#89=EDGE_LOOP($,(#356,#357,#358,#359,#360,#361,#362,#363));
#90=EDGE_LOOP($,(#364));
#91=EDGE_LOOP($,(#365));
#92=EDGE_LOOP($,(#366));
#93=EDGE_LOOP($,(#367));
#94=LINE($,#575,#122);
#95=LINE($,#578,#123);
#96=LINE($,#583,#124);
#97=LINE($,#586,#125);
#98=LINE($,#592,#126);
#99=LINE($,#595,#127);
#100=LINE($,#598,#128);
#101=LINE($,#601,#129);
#102=LINE($,#609,#130);
#103=LINE($,#612,#131);
#104=LINE($,#615,#132);
#105=LINE($,#617,#133);
#106=LINE($,#618,#134);
#107=LINE($,#621,#135);
#108=LINE($,#623,#136);
#109=LINE($,#630,#137);
#110=LINE($,#633,#138);
#111=LINE($,#635,#139);
#112=LINE($,#637,#140);
#113=LINE($,#638,#141);
#114=LINE($,#644,#142);
#115=LINE($,#647,#143);
#116=LINE($,#649,#144);
#117=LINE($,#651,#145);
#118=LINE($,#659,#146);
#119=LINE($,#660,#147);
#120=LINE($,#664,#148);
#121=LINE($,#679,#149);
#122=VECTOR($,#455,25.);
#123=VECTOR($,#458,25.);
#124=VECTOR($,#463,20.5);
#125=VECTOR($,#466,20.5);
#126=VECTOR($,#471,25.);
#127=VECTOR($,#474,25.);
#128=VECTOR($,#477,20.5);
#129=VECTOR($,#480,20.5);
#130=VECTOR($,#487,3.);
#131=VECTOR($,#490,3.);
#132=VECTOR($,#493,21.);
#133=VECTOR($,#494,3.);
#134=VECTOR($,#495,21.);
#135=VECTOR($,#498,33.5);
#136=VECTOR($,#501,33.5);
#137=VECTOR($,#508,3.);
#138=VECTOR($,#513,5.);
#139=VECTOR($,#514,33.5);
#140=VECTOR($,#515,3.);
#141=VECTOR($,#516,76.);
#142=VECTOR($,#521,3.);
#143=VECTOR($,#524,3.);
#144=VECTOR($,#527,33.5);
#145=VECTOR($,#528,21.);
#146=VECTOR($,#537,21.);
#147=VECTOR($,#538,3.);
#148=VECTOR($,#545,5.);
#149=VECTOR($,#566,76.);
#150=CIRCLE($,#405,2.);
#151=CIRCLE($,#406,2.);
#152=CIRCLE($,#408,5.);
#153=CIRCLE($,#409,12.5);
#154=CIRCLE($,#411,2.);
#155=CIRCLE($,#412,2.);
#156=CIRCLE($,#414,12.5);
#157=CIRCLE($,#415,5.);
#158=CIRCLE($,#417,2.);
#159=CIRCLE($,#418,2.);
#160=CIRCLE($,#421,2.);
#161=CIRCLE($,#422,3.175);
#162=CIRCLE($,#423,3.175);
#163=CIRCLE($,#425,2.);
#164=CIRCLE($,#428,2.);
#165=CIRCLE($,#429,2.);
#166=CIRCLE($,#431,2.);
#167=CIRCLE($,#432,3.175);
#168=CIRCLE($,#433,3.175);
#169=CIRCLE($,#436,2.);
#170=CIRCLE($,#440,3.175);
#171=CIRCLE($,#442,3.175);
#172=CIRCLE($,#444,3.175);
#173=CIRCLE($,#446,3.175);
#174=VERTEX_POINT($,#571);
#175=VERTEX_POINT($,#572);
#176=VERTEX_POINT($,#574);
#177=VERTEX_POINT($,#576);
#178=VERTEX_POINT($,#580);
#179=VERTEX_POINT($,#582);
#180=VERTEX_POINT($,#584);
#181=VERTEX_POINT($,#588);
#182=VERTEX_POINT($,#589);
#183=VERTEX_POINT($,#591);
#184=VERTEX_POINT($,#593);
#185=VERTEX_POINT($,#597);
#186=VERTEX_POINT($,#599);
#187=VERTEX_POINT($,#602);
#188=VERTEX_POINT($,#605);
#189=VERTEX_POINT($,#606);
#190=VERTEX_POINT($,#608);
#191=VERTEX_POINT($,#610);
#192=VERTEX_POINT($,#614);
#193=VERTEX_POINT($,#616);
#194=VERTEX_POINT($,#620);
#195=VERTEX_POINT($,#624);
#196=VERTEX_POINT($,#626);
#197=VERTEX_POINT($,#629);
#198=VERTEX_POINT($,#634);
#199=VERTEX_POINT($,#636);
#200=VERTEX_POINT($,#640);
#201=VERTEX_POINT($,#641);
#202=VERTEX_POINT($,#643);
#203=VERTEX_POINT($,#645);
#204=VERTEX_POINT($,#650);
#205=VERTEX_POINT($,#653);
#206=VERTEX_POINT($,#655);
#207=VERTEX_POINT($,#658);
#208=VERTEX_POINT($,#667);
#209=VERTEX_POINT($,#670);
#210=VERTEX_POINT($,#673);
#211=VERTEX_POINT($,#676);
#212=EDGE_CURVE($,#174,#175,#150,.T.);
#213=EDGE_CURVE($,#175,#176,#94,.T.);
#214=EDGE_CURVE($,#176,#177,#151,.T.);
#215=EDGE_CURVE($,#177,#174,#95,.T.);
#216=EDGE_CURVE($,#178,#178,#152,.T.);
#217=EDGE_CURVE($,#175,#179,#96,.T.);
#218=EDGE_CURVE($,#179,#180,#153,.T.);
#219=EDGE_CURVE($,#176,#180,#97,.T.);
#220=EDGE_CURVE($,#181,#182,#154,.T.);
#221=EDGE_CURVE($,#182,#183,#98,.T.);
#222=EDGE_CURVE($,#183,#184,#155,.T.);
#223=EDGE_CURVE($,#184,#181,#99,.T.);
#224=EDGE_CURVE($,#182,#185,#100,.T.);
#225=EDGE_CURVE($,#185,#186,#156,.T.);
#226=EDGE_CURVE($,#183,#186,#101,.T.);
#227=EDGE_CURVE($,#187,#187,#157,.T.);
#228=EDGE_CURVE($,#188,#189,#158,.T.);
#229=EDGE_CURVE($,#189,#190,#102,.T.);
#230=EDGE_CURVE($,#190,#191,#159,.T.);
#231=EDGE_CURVE($,#191,#188,#103,.T.);
#232=EDGE_CURVE($,#192,#189,#104,.T.);
#233=EDGE_CURVE($,#193,#192,#105,.T.);
#234=EDGE_CURVE($,#190,#193,#106,.T.);
#235=EDGE_CURVE($,#177,#194,#107,.T.);
#236=EDGE_CURVE($,#192,#194,#160,.T.);
#237=EDGE_CURVE($,#188,#174,#108,.T.);
#238=EDGE_CURVE($,#195,#195,#161,.T.);
#239=EDGE_CURVE($,#196,#196,#162,.T.);
#240=EDGE_CURVE($,#194,#197,#109,.T.);
#241=EDGE_CURVE($,#197,#193,#163,.T.);
#242=EDGE_CURVE($,#180,#185,#110,.T.);
#243=EDGE_CURVE($,#198,#181,#111,.T.);
#244=EDGE_CURVE($,#199,#198,#112,.T.);
#245=EDGE_CURVE($,#197,#199,#113,.T.);
#246=EDGE_CURVE($,#200,#201,#164,.T.);
#247=EDGE_CURVE($,#201,#202,#114,.T.);
#248=EDGE_CURVE($,#202,#203,#165,.T.);
#249=EDGE_CURVE($,#203,#200,#115,.T.);
#250=EDGE_CURVE($,#184,#201,#116,.T.);
#251=EDGE_CURVE($,#200,#204,#117,.T.);
#252=EDGE_CURVE($,#198,#204,#166,.T.);
#253=EDGE_CURVE($,#205,#205,#167,.T.);
#254=EDGE_CURVE($,#206,#206,#168,.T.);
#255=EDGE_CURVE($,#207,#203,#118,.T.);
#256=EDGE_CURVE($,#204,#207,#119,.T.);
#257=EDGE_CURVE($,#207,#199,#169,.T.);
#258=EDGE_CURVE($,#179,#186,#120,.T.);
#259=EDGE_CURVE($,#208,#208,#170,.T.);
#260=EDGE_CURVE($,#209,#209,#171,.T.);
#261=EDGE_CURVE($,#210,#210,#172,.T.);
#262=EDGE_CURVE($,#211,#211,#173,.T.);
#263=EDGE_CURVE($,#202,#191,#121,.T.);
#264=ORIENTED_EDGE($,*,*,#212,.T.);
#265=ORIENTED_EDGE($,*,*,#213,.T.);
#266=ORIENTED_EDGE($,*,*,#214,.T.);
#267=ORIENTED_EDGE($,*,*,#215,.T.);
#268=ORIENTED_EDGE($,*,*,#216,.T.);
#269=ORIENTED_EDGE($,*,*,#213,.F.);
#270=ORIENTED_EDGE($,*,*,#217,.T.);
#271=ORIENTED_EDGE($,*,*,#218,.T.);
#272=ORIENTED_EDGE($,*,*,#219,.F.);
#273=ORIENTED_EDGE($,*,*,#220,.T.);
#274=ORIENTED_EDGE($,*,*,#221,.T.);
#275=ORIENTED_EDGE($,*,*,#222,.T.);
#276=ORIENTED_EDGE($,*,*,#223,.T.);
#277=ORIENTED_EDGE($,*,*,#221,.F.);
#278=ORIENTED_EDGE($,*,*,#224,.T.);
#279=ORIENTED_EDGE($,*,*,#225,.T.);
#280=ORIENTED_EDGE($,*,*,#226,.F.);
#281=ORIENTED_EDGE($,*,*,#227,.T.);
#282=ORIENTED_EDGE($,*,*,#228,.T.);
#283=ORIENTED_EDGE($,*,*,#229,.T.);
#284=ORIENTED_EDGE($,*,*,#230,.T.);
#285=ORIENTED_EDGE($,*,*,#231,.T.);
#286=ORIENTED_EDGE($,*,*,#229,.F.);
#287=ORIENTED_EDGE($,*,*,#232,.F.);
#288=ORIENTED_EDGE($,*,*,#233,.F.);
#289=ORIENTED_EDGE($,*,*,#234,.F.);
#290=ORIENTED_EDGE($,*,*,#215,.F.);
#291=ORIENTED_EDGE($,*,*,#235,.T.);
#292=ORIENTED_EDGE($,*,*,#236,.F.);
#293=ORIENTED_EDGE($,*,*,#232,.T.);
#294=ORIENTED_EDGE($,*,*,#228,.F.);
#295=ORIENTED_EDGE($,*,*,#237,.T.);
#296=ORIENTED_EDGE($,*,*,#238,.T.);
#297=ORIENTED_EDGE($,*,*,#239,.T.);
#298=ORIENTED_EDGE($,*,*,#236,.T.);
#299=ORIENTED_EDGE($,*,*,#240,.T.);
#300=ORIENTED_EDGE($,*,*,#241,.T.);
#301=ORIENTED_EDGE($,*,*,#233,.T.);
#302=ORIENTED_EDGE($,*,*,#240,.F.);
#303=ORIENTED_EDGE($,*,*,#235,.F.);
#304=ORIENTED_EDGE($,*,*,#214,.F.);
#305=ORIENTED_EDGE($,*,*,#219,.T.);
#306=ORIENTED_EDGE($,*,*,#242,.T.);
#307=ORIENTED_EDGE($,*,*,#224,.F.);
#308=ORIENTED_EDGE($,*,*,#220,.F.);
#309=ORIENTED_EDGE($,*,*,#243,.F.);
#310=ORIENTED_EDGE($,*,*,#244,.F.);
#311=ORIENTED_EDGE($,*,*,#245,.F.);
#312=ORIENTED_EDGE($,*,*,#246,.T.);
#313=ORIENTED_EDGE($,*,*,#247,.T.);
#314=ORIENTED_EDGE($,*,*,#248,.T.);
#315=ORIENTED_EDGE($,*,*,#249,.T.);
#316=ORIENTED_EDGE($,*,*,#223,.F.);
#317=ORIENTED_EDGE($,*,*,#250,.T.);
#318=ORIENTED_EDGE($,*,*,#246,.F.);
#319=ORIENTED_EDGE($,*,*,#251,.T.);
#320=ORIENTED_EDGE($,*,*,#252,.F.);
#321=ORIENTED_EDGE($,*,*,#243,.T.);
#322=ORIENTED_EDGE($,*,*,#253,.T.);
#323=ORIENTED_EDGE($,*,*,#254,.T.);
#324=ORIENTED_EDGE($,*,*,#249,.F.);
#325=ORIENTED_EDGE($,*,*,#255,.F.);
#326=ORIENTED_EDGE($,*,*,#256,.F.);
#327=ORIENTED_EDGE($,*,*,#251,.F.);
#328=ORIENTED_EDGE($,*,*,#252,.T.);
#329=ORIENTED_EDGE($,*,*,#256,.T.);
#330=ORIENTED_EDGE($,*,*,#257,.T.);
#331=ORIENTED_EDGE($,*,*,#244,.T.);
#332=ORIENTED_EDGE($,*,*,#218,.F.);
#333=ORIENTED_EDGE($,*,*,#258,.T.);
#334=ORIENTED_EDGE($,*,*,#225,.F.);
#335=ORIENTED_EDGE($,*,*,#242,.F.);
#336=ORIENTED_EDGE($,*,*,#216,.F.);
#337=ORIENTED_EDGE($,*,*,#227,.F.);
#338=ORIENTED_EDGE($,*,*,#259,.F.);
#339=ORIENTED_EDGE($,*,*,#253,.F.);
#340=ORIENTED_EDGE($,*,*,#260,.F.);
#341=ORIENTED_EDGE($,*,*,#238,.F.);
#342=ORIENTED_EDGE($,*,*,#261,.F.);
#343=ORIENTED_EDGE($,*,*,#254,.F.);
#344=ORIENTED_EDGE($,*,*,#262,.F.);
#345=ORIENTED_EDGE($,*,*,#239,.F.);
#346=ORIENTED_EDGE($,*,*,#231,.F.);
#347=ORIENTED_EDGE($,*,*,#263,.F.);
#348=ORIENTED_EDGE($,*,*,#247,.F.);
#349=ORIENTED_EDGE($,*,*,#250,.F.);
#350=ORIENTED_EDGE($,*,*,#222,.F.);
#351=ORIENTED_EDGE($,*,*,#226,.T.);
#352=ORIENTED_EDGE($,*,*,#258,.F.);
#353=ORIENTED_EDGE($,*,*,#217,.F.);
#354=ORIENTED_EDGE($,*,*,#212,.F.);
#355=ORIENTED_EDGE($,*,*,#237,.F.);
#356=ORIENTED_EDGE($,*,*,#230,.F.);
#357=ORIENTED_EDGE($,*,*,#234,.T.);
#358=ORIENTED_EDGE($,*,*,#241,.F.);
#359=ORIENTED_EDGE($,*,*,#245,.T.);
#360=ORIENTED_EDGE($,*,*,#257,.F.);
#361=ORIENTED_EDGE($,*,*,#255,.T.);
#362=ORIENTED_EDGE($,*,*,#248,.F.);
#363=ORIENTED_EDGE($,*,*,#263,.T.);
#364=ORIENTED_EDGE($,*,*,#259,.T.);
#365=ORIENTED_EDGE($,*,*,#260,.T.);
#366=ORIENTED_EDGE($,*,*,#261,.T.);
#367=ORIENTED_EDGE($,*,*,#262,.T.);
#368=CYLINDRICAL_SURFACE($,#404,2.);
#369=CYLINDRICAL_SURFACE($,#410,2.);
#370=CYLINDRICAL_SURFACE($,#416,2.);
#371=CYLINDRICAL_SURFACE($,#424,2.);
#372=CYLINDRICAL_SURFACE($,#427,2.);
#373=CYLINDRICAL_SURFACE($,#435,2.);
#374=CYLINDRICAL_SURFACE($,#437,12.5);
#375=CYLINDRICAL_SURFACE($,#438,5.);
#376=CYLINDRICAL_SURFACE($,#439,3.175);
#377=CYLINDRICAL_SURFACE($,#441,3.175);
#378=CYLINDRICAL_SURFACE($,#443,3.175);
#379=CYLINDRICAL_SURFACE($,#445,3.175);
#380=ADVANCED_FACE($,(#38),#368,.F.);
#381=ADVANCED_FACE($,(#13,#14),#29,.T.);
#382=ADVANCED_FACE($,(#39),#369,.F.);
#383=ADVANCED_FACE($,(#40,#15),#30,.T.);
#384=ADVANCED_FACE($,(#41),#370,.T.);
#385=ADVANCED_FACE($,(#42),#31,.T.);
#386=ADVANCED_FACE($,(#43,#16,#17),#32,.F.);
#387=ADVANCED_FACE($,(#44),#371,.T.);
#388=ADVANCED_FACE($,(#45),#33,.T.);
#389=ADVANCED_FACE($,(#46),#372,.T.);
#390=ADVANCED_FACE($,(#47,#18,#19),#34,.F.);
#391=ADVANCED_FACE($,(#48),#35,.T.);
#392=ADVANCED_FACE($,(#49),#373,.T.);
#393=ADVANCED_FACE($,(#50),#374,.T.);
#394=ADVANCED_FACE($,(#51,#20),#375,.F.);
#395=ADVANCED_FACE($,(#52,#21),#376,.F.);
#396=ADVANCED_FACE($,(#53,#22),#377,.F.);
#397=ADVANCED_FACE($,(#54,#23),#378,.F.);
#398=ADVANCED_FACE($,(#55,#24),#379,.F.);
#399=ADVANCED_FACE($,(#56),#36,.T.);
#400=ADVANCED_FACE($,(#57,#25,#26,#27,#28),#37,.T.);
#401=CLOSED_SHELL($,(#380,#381,#382,#383,#384,#385,#386,#387,#388,#389,
#390,#391,#392,#393,#394,#395,#396,#397,#398,#399,#400));
#402=MANIFOLD_SOLID_BREP('Solid1',#401);
#403=AXIS2_PLACEMENT_3D('placement',#569,#449,#450);
#404=AXIS2_PLACEMENT_3D($,#570,#451,#452);
#405=AXIS2_PLACEMENT_3D($,#573,#453,#454);
#406=AXIS2_PLACEMENT_3D($,#577,#456,#457);
#407=AXIS2_PLACEMENT_3D($,#579,#459,#460);
#408=AXIS2_PLACEMENT_3D($,#581,#461,#462);
#409=AXIS2_PLACEMENT_3D($,#585,#464,#465);
#410=AXIS2_PLACEMENT_3D($,#587,#467,#468);
#411=AXIS2_PLACEMENT_3D($,#590,#469,#470);
#412=AXIS2_PLACEMENT_3D($,#594,#472,#473);
#413=AXIS2_PLACEMENT_3D($,#596,#475,#476);
#414=AXIS2_PLACEMENT_3D($,#600,#478,#479);
#415=AXIS2_PLACEMENT_3D($,#603,#481,#482);
#416=AXIS2_PLACEMENT_3D($,#604,#483,#484);
#417=AXIS2_PLACEMENT_3D($,#607,#485,#486);
#418=AXIS2_PLACEMENT_3D($,#611,#488,#489);
#419=AXIS2_PLACEMENT_3D($,#613,#491,#492);
#420=AXIS2_PLACEMENT_3D($,#619,#496,#497);
#421=AXIS2_PLACEMENT_3D($,#622,#499,#500);
#422=AXIS2_PLACEMENT_3D($,#625,#502,#503);
#423=AXIS2_PLACEMENT_3D($,#627,#504,#505);
#424=AXIS2_PLACEMENT_3D($,#628,#506,#507);
#425=AXIS2_PLACEMENT_3D($,#631,#509,#510);
#426=AXIS2_PLACEMENT_3D($,#632,#511,#512);
#427=AXIS2_PLACEMENT_3D($,#639,#517,#518);
#428=AXIS2_PLACEMENT_3D($,#642,#519,#520);
#429=AXIS2_PLACEMENT_3D($,#646,#522,#523);
#430=AXIS2_PLACEMENT_3D($,#648,#525,#526);
#431=AXIS2_PLACEMENT_3D($,#652,#529,#530);
#432=AXIS2_PLACEMENT_3D($,#654,#531,#532);
#433=AXIS2_PLACEMENT_3D($,#656,#533,#534);
#434=AXIS2_PLACEMENT_3D($,#657,#535,#536);
#435=AXIS2_PLACEMENT_3D($,#661,#539,#540);
#436=AXIS2_PLACEMENT_3D($,#662,#541,#542);
#437=AXIS2_PLACEMENT_3D($,#663,#543,#544);
#438=AXIS2_PLACEMENT_3D($,#665,#546,#547);
#439=AXIS2_PLACEMENT_3D($,#666,#548,#549);
#440=AXIS2_PLACEMENT_3D($,#668,#550,#551);
#441=AXIS2_PLACEMENT_3D($,#669,#552,#553);
#442=AXIS2_PLACEMENT_3D($,#671,#554,#555);
#443=AXIS2_PLACEMENT_3D($,#672,#556,#557);
#444=AXIS2_PLACEMENT_3D($,#674,#558,#559);
#445=AXIS2_PLACEMENT_3D($,#675,#560,#561);
#446=AXIS2_PLACEMENT_3D($,#677,#562,#563);
#447=AXIS2_PLACEMENT_3D($,#678,#564,#565);
#448=AXIS2_PLACEMENT_3D($,#680,#567,#568);
#449=DIRECTION('axis',(0.,0.,1.));
#450=DIRECTION('refdir',(1.,0.,0.));
#451=DIRECTION('center_axis',(0.,3.6515631745582E-032,1.));
#452=DIRECTION('ref_axis',(-0.707106781186548,-0.707106781186548,0.));
#453=DIRECTION('center_axis',(1.11022302462516E-016,0.,-1.));
#454=DIRECTION('ref_axis',(-0.707106781186548,-0.707106781186548,0.));
#455=DIRECTION($,(0.,3.6515631745582E-032,1.));
#456=DIRECTION('center_axis',(2.77555756156289E-017,0.,1.));
#457=DIRECTION('ref_axis',(-0.707106781186548,-0.707106781186548,0.));
#458=DIRECTION($,(0.,-3.6515631745582E-032,-1.));
#459=DIRECTION('center_axis',(1.,5.55111512312578E-017,-2.02702475613392E-048));
#460=DIRECTION('ref_axis',(0.,0.,-1.));
#461=DIRECTION('center_axis',(-1.,-5.55111512312578E-017,2.02702475613392E-048));
#462=DIRECTION('ref_axis',(0.,-1.12522477787254E-064,-1.));
#463=DIRECTION($,(-5.55111512312578E-017,1.,0.));
#464=DIRECTION('center_axis',(1.,5.55111512312578E-017,-2.02702475613392E-048));
#465=DIRECTION('ref_axis',(0.,1.12522477787254E-064,1.));
#466=DIRECTION($,(-5.55111512312578E-017,1.,0.));
#467=DIRECTION('center_axis',(0.,-3.6515631745582E-032,-1.));
#468=DIRECTION('ref_axis',(0.707106781186548,-0.707106781186547,0.));
#469=DIRECTION('center_axis',(2.77555756156289E-017,0.,1.));
#470=DIRECTION('ref_axis',(0.707106781186548,-0.707106781186547,0.));
#471=DIRECTION($,(0.,-3.6515631745582E-032,-1.));
#472=DIRECTION('center_axis',(1.11022302462516E-016,0.,-1.));
#473=DIRECTION('ref_axis',(0.707106781186548,-0.707106781186547,0.));
#474=DIRECTION($,(0.,3.6515631745582E-032,1.));
#475=DIRECTION('center_axis',(-1.,-5.55111512312578E-017,2.02702475613392E-048));
#476=DIRECTION('ref_axis',(0.,0.,1.));
#477=DIRECTION($,(-5.55111512312578E-017,1.,0.));
#478=DIRECTION('center_axis',(-1.,-5.55111512312578E-017,2.02702475613392E-048));
#479=DIRECTION('ref_axis',(0.,1.12522477787254E-064,1.));
#480=DIRECTION($,(-5.55111512312578E-017,1.,0.));
#481=DIRECTION('center_axis',(1.,5.55111512312578E-017,-2.02702475613392E-048));
#482=DIRECTION('ref_axis',(0.,-1.12522477787254E-064,-1.));
#483=DIRECTION('center_axis',(0.,1.,0.));
#484=DIRECTION('ref_axis',(0.707106781186546,0.,-0.707106781186549));
#485=DIRECTION('center_axis',(5.55111512312578E-017,-1.,3.6515631745582E-032));
#486=DIRECTION('ref_axis',(0.707106781186546,0.,-0.707106781186549));
#487=DIRECTION($,(0.,-1.,0.));
#488=DIRECTION('center_axis',(-5.55111512312578E-017,1.,-3.6515631745582E-032));
#489=DIRECTION('ref_axis',(0.707106781186546,0.,-0.707106781186549));
#490=DIRECTION($,(0.,1.,0.));
#491=DIRECTION('center_axis',(1.,0.,-3.5527136788005E-016));
#492=DIRECTION('ref_axis',(-7.105427357601E-016,0.,-1.));
#493=DIRECTION($,(-3.5527136788005E-016,0.,-1.));
#494=DIRECTION($,(0.,1.,0.));
#495=DIRECTION($,(3.5527136788005E-016,0.,1.));
#496=DIRECTION('center_axis',(5.55111512312578E-017,-1.,3.6515631745582E-032));
#497=DIRECTION('ref_axis',(0.,0.,-1.));
#498=DIRECTION($,(1.,0.,-2.77555756156289E-017));
#499=DIRECTION('center_axis',(5.55111512312578E-017,-1.,3.6515631745582E-032));
#500=DIRECTION('ref_axis',(0.70710678118655,0.,0.707106781186545));
#501=DIRECTION($,(-1.,0.,-1.11022302462516E-016));
#502=DIRECTION('center_axis',(5.55111512312578E-017,-1.,3.6515631745582E-032));
#503=DIRECTION('ref_axis',(-1.,0.,2.02702475613392E-048));
#504=DIRECTION('center_axis',(5.55111512312578E-017,-1.,3.6515631745582E-032));
#505=DIRECTION('ref_axis',(-1.,0.,2.02702475613392E-048));
#506=DIRECTION('center_axis',(0.,1.,0.));
#507=DIRECTION('ref_axis',(0.70710678118655,0.,0.707106781186545));
#508=DIRECTION($,(0.,-1.,0.));
#509=DIRECTION('center_axis',(-5.55111512312578E-017,1.,-3.6515631745582E-032));
#510=DIRECTION('ref_axis',(0.70710678118655,0.,0.707106781186545));
#511=DIRECTION('center_axis',(2.77555756156289E-017,0.,1.));
#512=DIRECTION('ref_axis',(1.,0.,0.));
#513=DIRECTION($,(-1.,0.,0.));
#514=DIRECTION($,(1.,0.,-2.77555756156289E-017));
#515=DIRECTION($,(0.,1.,0.));
#516=DIRECTION($,(-1.,0.,2.77555756156289E-017));
#517=DIRECTION('center_axis',(0.,1.,0.));
#518=DIRECTION('ref_axis',(-0.707106781186548,0.,-0.707106781186548));
#519=DIRECTION('center_axis',(5.55111512312578E-017,-1.,3.6515631745582E-032));
#520=DIRECTION('ref_axis',(-0.707106781186548,0.,-0.707106781186548));
#521=DIRECTION($,(0.,-1.,0.));
#522=DIRECTION('center_axis',(-5.55111512312578E-017,1.,-3.6515631745582E-032));
#523=DIRECTION('ref_axis',(-0.707106781186548,0.,-0.707106781186548));
#524=DIRECTION($,(0.,1.,0.));
#525=DIRECTION('center_axis',(5.55111512312578E-017,-1.,3.6515631745582E-032));
#526=DIRECTION('ref_axis',(0.,0.,-1.));
#527=DIRECTION($,(-1.,0.,-1.11022302462516E-016));
#528=DIRECTION($,(0.,0.,1.));
#529=DIRECTION('center_axis',(5.55111512312578E-017,-1.,3.6515631745582E-032));
#530=DIRECTION('ref_axis',(-0.707106781186548,0.,0.707106781186548));
#531=DIRECTION('center_axis',(5.55111512312578E-017,-1.,3.6515631745582E-032));
#532=DIRECTION('ref_axis',(-1.,0.,2.02702475613392E-048));
#533=DIRECTION('center_axis',(5.55111512312578E-017,-1.,3.6515631745582E-032));
#534=DIRECTION('ref_axis',(-1.,0.,2.02702475613392E-048));
#535=DIRECTION('center_axis',(-1.,0.,0.));
#536=DIRECTION('ref_axis',(0.,0.,1.));
#537=DIRECTION($,(0.,0.,-1.));
#538=DIRECTION($,(0.,-1.,0.));
#539=DIRECTION('center_axis',(0.,1.,0.));
#540=DIRECTION('ref_axis',(-0.707106781186548,0.,0.707106781186548));
#541=DIRECTION('center_axis',(-5.55111512312578E-017,1.,-3.6515631745582E-032));
#542=DIRECTION('ref_axis',(-0.707106781186548,0.,0.707106781186548));
#543=DIRECTION('center_axis',(1.,0.,0.));
#544=DIRECTION('ref_axis',(0.,1.12522477787254E-064,1.));
#545=DIRECTION($,(-1.,0.,0.));
#546=DIRECTION('center_axis',(1.,0.,0.));
#547=DIRECTION('ref_axis',(0.,-1.12522477787254E-064,-1.));
#548=DIRECTION('center_axis',(0.,-1.,0.));
#549=DIRECTION('ref_axis',(-1.,0.,2.02702475613392E-048));
#550=DIRECTION('center_axis',(-5.55111512312578E-017,1.,-3.6515631745582E-032));
#551=DIRECTION('ref_axis',(-1.,0.,2.02702475613392E-048));
#552=DIRECTION('center_axis',(0.,-1.,0.));
#553=DIRECTION('ref_axis',(-1.,0.,2.02702475613392E-048));
#554=DIRECTION('center_axis',(-5.55111512312578E-017,1.,-3.6515631745582E-032));
#555=DIRECTION('ref_axis',(-1.,0.,2.02702475613392E-048));
#556=DIRECTION('center_axis',(0.,-1.,0.));
#557=DIRECTION('ref_axis',(-1.,0.,2.02702475613392E-048));
#558=DIRECTION('center_axis',(-5.55111512312578E-017,1.,-3.6515631745582E-032));
#559=DIRECTION('ref_axis',(-1.,0.,2.02702475613392E-048));
#560=DIRECTION('center_axis',(0.,-1.,0.));
#561=DIRECTION('ref_axis',(-1.,0.,2.02702475613392E-048));
#562=DIRECTION('center_axis',(-5.55111512312578E-017,1.,-3.6515631745582E-032));
#563=DIRECTION('ref_axis',(-1.,0.,2.02702475613392E-048));
#564=DIRECTION('center_axis',(1.11022302462516E-016,0.,-1.));
#565=DIRECTION('ref_axis',(-1.,0.,-1.77635683940025E-016));
#566=DIRECTION($,(1.,0.,1.11022302462516E-016));
#567=DIRECTION('center_axis',(5.55111512312578E-017,-1.,3.6515631745582E-032));
#568=DIRECTION('ref_axis',(0.,-3.6515631745582E-032,-1.));
#569=CARTESIAN_POINT('',(0.,0.,0.));
#570=CARTESIAN_POINT('Origin',(4.5,5.,6.25));
#571=CARTESIAN_POINT('',(4.5,3.,-12.5));
#572=CARTESIAN_POINT('',(2.5,5.,-12.5));
#573=CARTESIAN_POINT('Origin',(4.5,5.,-12.5));
#574=CARTESIAN_POINT('',(2.5,5.,12.5));
#575=CARTESIAN_POINT($,(2.5,5.,6.25));
#576=CARTESIAN_POINT('',(4.5,3.,12.5));
#577=CARTESIAN_POINT('Origin',(4.5,5.,12.5));
#578=CARTESIAN_POINT($,(4.5,3.,6.25));
#579=CARTESIAN_POINT('Origin',(2.5,3.,12.5));
#580=CARTESIAN_POINT('',(2.5,25.3,5.));
#581=CARTESIAN_POINT('Origin',(2.5,25.3,0.));
#582=CARTESIAN_POINT('',(2.5,25.5,-12.5));
#583=CARTESIAN_POINT($,(2.5,3.,-12.5));
#584=CARTESIAN_POINT('',(2.5,25.5,12.5));
#585=CARTESIAN_POINT('Origin',(2.5,25.5,0.));
#586=CARTESIAN_POINT($,(2.5,3.,12.5));
#587=CARTESIAN_POINT('Origin',(-4.5,5.,-6.25));
#588=CARTESIAN_POINT('',(-4.5,3.,12.5));
#589=CARTESIAN_POINT('',(-2.5,5.,12.5));
#590=CARTESIAN_POINT('Origin',(-4.5,5.,12.5));
#591=CARTESIAN_POINT('',(-2.5,5.,-12.5));
#592=CARTESIAN_POINT($,(-2.5,5.,-6.25));
#593=CARTESIAN_POINT('',(-4.5,3.,-12.5));
#594=CARTESIAN_POINT('Origin',(-4.5,5.,-12.5));
#595=CARTESIAN_POINT($,(-4.5,3.,-6.25));
#596=CARTESIAN_POINT('Origin',(-2.5,3.,-12.5));
#597=CARTESIAN_POINT('',(-2.5,25.5,12.5));
#598=CARTESIAN_POINT($,(-2.5,3.,12.5));
#599=CARTESIAN_POINT('',(-2.5,25.5,-12.5));
#600=CARTESIAN_POINT('Origin',(-2.5,25.5,0.));
#601=CARTESIAN_POINT($,(-2.5,3.,-12.5));
#602=CARTESIAN_POINT('',(-2.5,25.3,5.));
#603=CARTESIAN_POINT('Origin',(-2.5,25.3,0.));
#604=CARTESIAN_POINT('Origin',(38.,0.,-10.5));
#605=CARTESIAN_POINT('',(38.,3.,-12.5));
#606=CARTESIAN_POINT('',(40.,3.,-10.5));
#607=CARTESIAN_POINT('Origin',(38.,3.,-10.5));
#608=CARTESIAN_POINT('',(40.,0.,-10.5));
#609=CARTESIAN_POINT($,(40.,0.,-10.5));
#610=CARTESIAN_POINT('',(38.,0.,-12.5));
#611=CARTESIAN_POINT('Origin',(38.,0.,-10.5));
#612=CARTESIAN_POINT($,(38.,0.,-12.5));
#613=CARTESIAN_POINT('Origin',(40.,0.,12.5));
#614=CARTESIAN_POINT('',(40.,3.,10.5));
#615=CARTESIAN_POINT($,(40.,3.,-12.5));
#616=CARTESIAN_POINT('',(40.,0.,10.5));
#617=CARTESIAN_POINT($,(40.,0.,10.5));
#618=CARTESIAN_POINT($,(40.,0.,-12.5));
#619=CARTESIAN_POINT('Origin',(-6.97854472621527E-015,3.,-3.70074341541719E-016));
#620=CARTESIAN_POINT('',(38.,3.,12.5));
#621=CARTESIAN_POINT($,(40.,3.,12.5));
#622=CARTESIAN_POINT('Origin',(38.,3.,10.5));
#623=CARTESIAN_POINT($,(-40.,3.,-12.5));
#624=CARTESIAN_POINT('',(38.175,3.,-6.25));
#625=CARTESIAN_POINT('Origin',(35.,3.,-6.25));
#626=CARTESIAN_POINT('',(38.175,3.,6.25));
#627=CARTESIAN_POINT('Origin',(35.,3.,6.25));
#628=CARTESIAN_POINT('Origin',(38.,0.,10.5));
#629=CARTESIAN_POINT('',(38.,0.,12.5));
#630=CARTESIAN_POINT($,(38.,0.,12.5));
#631=CARTESIAN_POINT('Origin',(38.,0.,10.5));
#632=CARTESIAN_POINT('Origin',(-40.,0.,12.5));
#633=CARTESIAN_POINT($,(-2.5,25.5,12.5));
#634=CARTESIAN_POINT('',(-38.,3.,12.5));
#635=CARTESIAN_POINT($,(40.,3.,12.5));
#636=CARTESIAN_POINT('',(-38.,0.,12.5));
#637=CARTESIAN_POINT($,(-38.,0.,12.5));
#638=CARTESIAN_POINT($,(40.,0.,12.5));
#639=CARTESIAN_POINT('Origin',(-38.,0.,-10.5));
#640=CARTESIAN_POINT('',(-40.,3.,-10.5));
#641=CARTESIAN_POINT('',(-38.,3.,-12.5));
#642=CARTESIAN_POINT('Origin',(-38.,3.,-10.5));
#643=CARTESIAN_POINT('',(-38.,0.,-12.5));
#644=CARTESIAN_POINT($,(-38.,0.,-12.5));
#645=CARTESIAN_POINT('',(-40.,0.,-10.5));
#646=CARTESIAN_POINT('Origin',(-38.,0.,-10.5));
#647=CARTESIAN_POINT($,(-40.,0.,-10.5));
#648=CARTESIAN_POINT('Origin',(-6.97854472621527E-015,3.,-3.70074341541719E-016));
#649=CARTESIAN_POINT($,(-40.,3.,-12.5));
#650=CARTESIAN_POINT('',(-40.,3.,10.5));
#651=CARTESIAN_POINT($,(-40.,3.,12.5));
#652=CARTESIAN_POINT('Origin',(-38.,3.,10.5));
#653=CARTESIAN_POINT('',(-31.825,3.,-6.25));
#654=CARTESIAN_POINT('Origin',(-35.,3.,-6.25));
#655=CARTESIAN_POINT('',(-31.825,3.,6.25));
#656=CARTESIAN_POINT('Origin',(-35.,3.,6.25));
#657=CARTESIAN_POINT('Origin',(-40.,0.,-12.5));
#658=CARTESIAN_POINT('',(-40.,0.,10.5));
#659=CARTESIAN_POINT($,(-40.,0.,12.5));
#660=CARTESIAN_POINT($,(-40.,0.,10.5));
#661=CARTESIAN_POINT('Origin',(-38.,0.,10.5));
#662=CARTESIAN_POINT('Origin',(-38.,0.,10.5));
#663=CARTESIAN_POINT('Origin',(-2.5,25.5,0.));
#664=CARTESIAN_POINT($,(-2.5,25.5,-12.5));
#665=CARTESIAN_POINT('Origin',(-2.5,25.3,0.));
#666=CARTESIAN_POINT('Origin',(-35.,3.,-6.25));
#667=CARTESIAN_POINT('',(-31.825,-1.41982036127024E-047,-6.25));
#668=CARTESIAN_POINT('Origin',(-35.,0.,-6.25));
#669=CARTESIAN_POINT('Origin',(35.,3.,-6.25));
#670=CARTESIAN_POINT('',(38.175,-1.41982036127024E-047,-6.25));
#671=CARTESIAN_POINT('Origin',(35.,0.,-6.25));
#672=CARTESIAN_POINT('Origin',(-35.,3.,6.25));
#673=CARTESIAN_POINT('',(-31.825,-1.41982036127024E-047,6.25));
#674=CARTESIAN_POINT('Origin',(-35.,0.,6.25));
#675=CARTESIAN_POINT('Origin',(35.,3.,6.25));
#676=CARTESIAN_POINT('',(38.175,-1.41982036127024E-047,6.25));
#677=CARTESIAN_POINT('Origin',(35.,0.,6.25));
#678=CARTESIAN_POINT('Origin',(40.,0.,-12.5));
#679=CARTESIAN_POINT($,(-40.,0.,-12.5));
#680=CARTESIAN_POINT('Origin',(-6.97854472621527E-015,0.,-3.70074341541719E-016));
#681=UNCERTAINTY_MEASURE_WITH_UNIT(LENGTH_MEASURE(0.01),#683,
'DISTANCE_ACCURACY_VALUE',
'Maximum model space distance between geometric entities at asserted c
onnectivities');
#682=(
GEOMETRIC_REPRESENTATION_CONTEXT(3)
GLOBAL_UNCERTAINTY_ASSIGNED_CONTEXT((#681))
GLOBAL_UNIT_ASSIGNED_CONTEXT((#683,#686,#684))
REPRESENTATION_CONTEXT('','3D')
);
#683=(
LENGTH_UNIT()
NAMED_UNIT(*)
SI_UNIT(.MILLI.,.METRE.)
);
#684=(
NAMED_UNIT(*)
SI_UNIT($,.STERADIAN.)
SOLID_ANGLE_UNIT()
);
#685=DIMENSIONAL_EXPONENTS(0.,0.,0.,0.,0.,0.,0.);
#686=(
CONVERSION_BASED_UNIT('degree',#688)
NAMED_UNIT(#685)
PLANE_ANGLE_UNIT()
);
#687=(
NAMED_UNIT(*)
PLANE_ANGLE_UNIT()
SI_UNIT($,.RADIAN.)
);
#688=PLANE_ANGLE_MEASURE_WITH_UNIT(PLANE_ANGLE_MEASURE(0.01745329252),#687);
#689=SHAPE_DEFINITION_REPRESENTATION(#690,#691);
#690=PRODUCT_DEFINITION_SHAPE('',$,#693);
#691=SHAPE_REPRESENTATION('',(#403),#682);
#692=PRODUCT_DEFINITION_CONTEXT('3D Mechanical Parts',#696,'design');
#693=PRODUCT_DEFINITION('MB5.T','MB5.T',#694,#692);
#694=PRODUCT_DEFINITION_FORMATION('',$,#698);
#695=APPLICATION_PROTOCOL_DEFINITION('international standard',
'automotive_design',2009,#696);
#696=APPLICATION_CONTEXT(
'Core Data for Automotive Mechanical Design Process');
#697=PRODUCT_CONTEXT('3D Mechanical Parts',#696,'mechanical');
#698=PRODUCT('MB5.T','MB5.T',$,(#697));
#699=PRESENTATION_STYLE_ASSIGNMENT((#700));
#700=SURFACE_STYLE_USAGE(.BOTH.,#701);
#701=SURFACE_SIDE_STYLE($,(#702));
#702=SURFACE_STYLE_FILL_AREA(#703);
#703=FILL_AREA_STYLE($,(#704));
#704=FILL_AREA_STYLE_COLOUR($,#705);
#705=COLOUR_RGB('',0.749019607843137,0.749019607843137,0.749019607843137);
ENDSEC;
END-ISO-10303-21;
